  0
SECTION
  2
HEADER
  9
$ACADVER
  1
AC1015
  9
$ACADMAINTVER
 70
     6
  9
$DWGCODEPAGE
  3
ANSI_1254
  9
$INSBASE
 10
0.0
 20
0.0
 30
0.0
  9
$EXTMIN
 10
0.0
 20
0.0
 30
0.0
  9
$EXTMAX
 10
279.4
 20
215.9
 30
0.0
  9
$LIMMIN
 10
0.0
 20
0.0
  9
$LIMMAX
 10
279.4
 20
215.9
  9
$ORTHOMODE
 70
     0
  9
$REGENMODE
 70
     1
  9
$FILLMODE
 70
     1
  9
$QTEXTMODE
 70
     0
  9
$MIRRTEXT
 70
     1
  9
$LTSCALE
 40
1.0
  9
$ATTMODE
 70
     1
  9
$TEXTSIZE
 40
3.5
  9
$TRACEWID
 40
1.0
  9
$TEXTSTYLE
  7
Standard
  9
$CLAYER
  8
0
  9
$CELTYPE
  6
ByLayer
  9
$CECOLOR
 62
   256
  9
$CELTSCALE
 40
1.0
  9
$DISPSILH
 70
     0
  9
$DIMSCALE
 40
1.0
  9
$DIMASZ
 40
3.5
  9
$DIMEXO
 40
1.0
  9
$DIMDLI
 40
3.75
  9
$DIMRND
 40
0.0
  9
$DIMDLE
 40
0.0
  9
$DIMEXE
 40
1.0
  9
$DIMTP
 40
0.0
  9
$DIMTM
 40
0.0
  9
$DIMTXT
 40
3.5
  9
$DIMCEN
 40
2.5
  9
$DIMTSZ
 40
0.0
  9
$DIMTOL
 70
     0
  9
$DIMLIM
 70
     0
  9
$DIMTIH
 70
     1
  9
$DIMTOH
 70
     1
  9
$DIMSE1
 70
     0
  9
$DIMSE2
 70
     0
  9
$DIMTAD
 70
     1
  9
$DIMZIN
 70
     0
  9
$DIMBLK
  1

  9
$DIMASO
 70
     1
  9
$DIMSHO
 70
     1
  9
$DIMPOST
  1

  9
$DIMAPOST
  1

  9
$DIMALT
 70
     0
  9
$DIMALTD
 70
     3
  9
$DIMALTF
 40
0.0393700787
  9
$DIMLFAC
 40
1.0
  9
$DIMTOFL
 70
     1
  9
$DIMTVP
 40
0.0
  9
$DIMTIX
 70
     0
  9
$DIMSOXD
 70
     0
  9
$DIMSAH
 70
     0
  9
$DIMBLK1
  1

  9
$DIMBLK2
  1

  9
$DIMSTYLE
  2
ISO-25
  9
$DIMCLRD
 70
     0
  9
$DIMCLRE
 70
     0
  9
$DIMCLRT
 70
     0
  9
$DIMTFAC
 40
1.0
  9
$DIMGAP
 40
1.524
  9
$DIMJUST
 70
     0
  9
$DIMSD1
 70
     0
  9
$DIMSD2
 70
     0
  9
$DIMTOLJ
 70
     0
  9
$DIMTZIN
 70
     0
  9
$DIMALTZ
 70
     0
  9
$DIMALTTZ
 70
     0
  9
$DIMUPT
 70
     0
  9
$DIMDEC
 70
     2
  9
$DIMTDEC
 70
     2
  9
$DIMALTU
 70
     2
  9
$DIMALTTD
 70
     3
  9
$DIMTXSTY
  7
Standard
  9
$DIMAUNIT
 70
     0
  9
$DIMADEC
 70
     2
  9
$DIMALTRND
 40
0.0
  9
$DIMAZIN
 70
     0
  9
$DIMDSEP
 70
    44
  9
$DIMATFIT
 70
     3
  9
$DIMFRAC
 70
     0
  9
$DIMLDRBLK
  1

  9
$DIMLUNIT
 70
     2
  9
$DIMLWD
 70
    -2
  9
$DIMLWE
 70
    -2
  9
$DIMTMOVE
 70
     0
  9
$LUNITS
 70
     2
  9
$LUPREC
 70
     2
  9
$SKETCHINC
 40
1.0
  9
$FILLETRAD
 40
10.0
  9
$AUNITS
 70
     0
  9
$AUPREC
 70
     2
  9
$MENU
  1
.
  9
$ELEVATION
 40
0.0
  9
$PELEVATION
 40
0.0
  9
$THICKNESS
 40
0.0
  9
$LIMCHECK
 70
     0
  9
$CHAMFERA
 40
0.0
  9
$CHAMFERB
 40
0.0
  9
$CHAMFERC
 40
0.0
  9
$CHAMFERD
 40
0.0
  9
$SKPOLY
 70
     0
  9
$TDCREATE
 40
2458985.690430185
  9
$TDUCREATE
 40
2458985.565430185
  9
$TDUPDATE
 40
2458985.690430532
  9
$TDUUPDATE
 40
2458985.565430532
  9
$TDINDWG
 40
0.0000000116
  9
$TDUSRTIMER
 40
0.0000000116
  9
$USRTIMER
 70
     1
  9
$ANGBASE
 50
0.0
  9
$ANGDIR
 70
     0
  9
$PDMODE
 70
     0
  9
$PDSIZE
 40
-1.0
  9
$PLINEWID
 40
0.0
  9
$SPLFRAME
 70
     0
  9
$SPLINETYPE
 70
     6
  9
$SPLINESEGS
 70
     8
  9
$HANDSEED
  5
CB
  9
$SURFTAB1
 70
     6
  9
$SURFTAB2
 70
     6
  9
$SURFTYPE
 70
     6
  9
$SURFU
 70
     6
  9
$SURFV
 70
     6
  9
$UCSBASE
  2

  9
$UCSNAME
  2

  9
$UCSORG
 10
0.0
 20
0.0
 30
0.0
  9
$UCSXDIR
 10
1.0
 20
0.0
 30
0.0
  9
$UCSYDIR
 10
0.0
 20
1.0
 30
0.0
  9
$UCSORTHOREF
  2

  9
$UCSORTHOVIEW
 70
     0
  9
$UCSORGTOP
 10
0.0
 20
0.0
 30
0.0
  9
$UCSORGBOTTOM
 10
0.0
 20
0.0
 30
0.0
  9
$UCSORGLEFT
 10
0.0
 20
0.0
 30
0.0
  9
$UCSORGRIGHT
 10
0.0
 20
0.0
 30
0.0
  9
$UCSORGFRONT
 10
0.0
 20
0.0
 30
0.0
  9
$UCSORGBACK
 10
0.0
 20
0.0
 30
0.0
  9
$PUCSBASE
  2

  9
$PUCSNAME
  2

  9
$PUCSORG
 10
0.0
 20
0.0
 30
0.0
  9
$PUCSXDIR
 10
1.0
 20
0.0
 30
0.0
  9
$PUCSYDIR
 10
0.0
 20
1.0
 30
0.0
  9
$PUCSORTHOREF
  2

  9
$PUCSORTHOVIEW
 70
     0
  9
$PUCSORGTOP
 10
0.0
 20
0.0
 30
0.0
  9
$PUCSORGBOTTOM
 10
0.0
 20
0.0
 30
0.0
  9
$PUCSORGLEFT
 10
0.0
 20
0.0
 30
0.0
  9
$PUCSORGRIGHT
 10
0.0
 20
0.0
 30
0.0
  9
$PUCSORGFRONT
 10
0.0
 20
0.0
 30
0.0
  9
$PUCSORGBACK
 10
0.0
 20
0.0
 30
0.0
  9
$USERI1
 70
     0
  9
$USERI2
 70
     0
  9
$USERI3
 70
     0
  9
$USERI4
 70
     0
  9
$USERI5
 70
     0
  9
$USERR1
 40
0.0
  9
$USERR2
 40
0.0
  9
$USERR3
 40
0.0
  9
$USERR4
 40
0.0
  9
$USERR5
 40
0.0
  9
$WORLDVIEW
 70
     1
  9
$SHADEDGE
 70
     3
  9
$SHADEDIF
 70
    70
  9
$TILEMODE
 70
     1
  9
$MAXACTVP
 70
    64
  9
$PINSBASE
 10
0.0
 20
0.0
 30
0.0
  9
$PLIMCHECK
 70
     0
  9
$PEXTMIN
 10
1.0000000000E+20
 20
1.0000000000E+20
 30
1.0000000000E+20
  9
$PEXTMAX
 10
-1.0000000000E+20
 20
-1.0000000000E+20
 30
-1.0000000000E+20
  9
$PLIMMIN
 10
0.0
 20
0.0
  9
$PLIMMAX
 10
420.0
 20
297.0
  9
$UNITMODE
 70
     0
  9
$VISRETAIN
 70
     1
  9
$PLINEGEN
 70
     0
  9
$PSLTSCALE
 70
     1
  9
$TREEDEPTH
 70
  3020
  9
$CMLSTYLE
  2
Standard
  9
$CMLJUST
 70
     0
  9
$CMLSCALE
 40
20.0
  9
$PROXYGRAPHICS
 70
     1
  9
$MEASUREMENT
 70
     1
  9
$CELWEIGHT
370
    -1
  9
$ENDCAPS
280
     0
  9
$JOINSTYLE
280
     0
  9
$LWDISPLAY
290
     1
  9
$INSUNITS
 70
     4
  9
$HYPERLINKBASE
  1

  9
$STYLESHEET
  1

  9
$XEDIT
290
     1
  9
$CEPSNTYPE
380
     0
  9
$PSTYLEMODE
290
     1
  9
$FINGERPRINTGUID
  2
{d026fa05-61b4-4585-afab-1a02ef3ec7ce}
  9
$VERSIONGUID
  2
{FAEB1C32-E019-11D5-929B-00C0DF256EC4}
  9
$EXTNAMES
290
     1
  9
$PSVPSCALE
 40
0.0
  9
$OLESTARTUP
290
     0
  0
ENDSEC
  0
SECTION
  2
CLASSES
  0
CLASS
  1
ACDBDICTIONARYWDFLT
  2
AcDbDictionaryWithDefault
  3
ObjectDBX Classes
 90
        0
280
     0
281
     0
  0
CLASS
  1
VISUALSTYLE
  2
AcDbVisualStyle
  3
ObjectDBX Classes
 90
     4095
280
     0
281
     0
  0
CLASS
  1
MATERIAL
  2
AcDbMaterial
  3
ObjectDBX Classes
 90
     1153
280
     0
281
     0
  0
CLASS
  1
SCALE
  2
AcDbScale
  3
ObjectDBX Classes
 90
     1153
280
     0
281
     0
  0
CLASS
  1
TABLESTYLE
  2
AcDbTableStyle
  3
ObjectDBX Classes
 90
     4095
280
     0
281
     0
  0
CLASS
  1
MLEADERSTYLE
  2
AcDbMLeaderStyle
  3
ACDB_MLEADERSTYLE_CLASS
 90
     4095
280
     0
281
     0
  0
CLASS
  1
SUN
  2
AcDbSun
  3
SCENEOE
 90
     1153
280
     0
281
     0
  0
CLASS
  1
ACDBPLACEHOLDER
  2
AcDbPlaceHolder
  3
ObjectDBX Classes
 90
        0
280
     0
281
     0
  0
CLASS
  1
LAYOUT
  2
AcDbLayout
  3
ObjectDBX Classes
 90
        0
280
     0
281
     0
  0
ENDSEC
  0
SECTION
  2
TABLES
  0
TABLE
  2
VPORT
  5
8
330
0
100
AcDbSymbolTable
 70
     1
  0
VPORT
  5
29
330
8
100
AcDbSymbolTableRecord
100
AcDbViewportTableRecord
  2
*Active
 70
     0
 10
0.0
 20
0.0
 11
1.0
 21
1.0
 12
139.7
 22
107.95
 13
0.0
 23
0.0
 14
10.0
 24
10.0
 15
10.0
 25
10.0
 16
0.0
 26
0.0
 36
1.0
 17
0.0
 27
0.0
 37
0.0
 40
215.9
 41
1.2941176471
 42
50.0
 43
0.0
 44
0.0
 50
0.0
 51
0.0
 71
     0
 72
  2000
 73
     1
 74
     3
 75
     0
 76
     0
 77
     0
 78
     0
281
     0
 65
     1
110
0.0
120
0.0
130
0.0
111
1.0
121
0.0
131
0.0
112
0.0
122
1.0
132
0.0
 79
     0
146
0.0
  0
ENDTAB
  0
TABLE
  2
LTYPE
  5
5
330
0
100
AcDbSymbolTable
 70
     6
  0
LTYPE
  5
14
330
5
100
AcDbSymbolTableRecord
100
AcDbLinetypeTableRecord
  2
ByBlock
 70
     0
  3

 72
    65
 73
     0
 40
0.0
  0
LTYPE
  5
15
330
5
100
AcDbSymbolTableRecord
100
AcDbLinetypeTableRecord
  2
ByLayer
 70
     0
  3

 72
    65
 73
     0
 40
0.0
  0
LTYPE
  5
16
330
5
100
AcDbSymbolTableRecord
100
AcDbLinetypeTableRecord
  2
Continuous
 70
     0
  3
Solid line
 72
    65
 73
     0
 40
0.0
  0
LTYPE
  5
6E
330
5
100
AcDbSymbolTableRecord
100
AcDbLinetypeTableRecord
  2
HIDDEN
 70
     0
  3
Hidden __ __ __ __ __ __ __ __ __ __ __ __ __ __
 72
    65
 73
     2
 40
1.905
 49
1.27
 74
     0
 49
-0.635
 74
     0
  0
LTYPE
  5
6F
330
5
100
AcDbSymbolTableRecord
100
AcDbLinetypeTableRecord
  2
PHANTOM
 70
     0
  3
Phantom ______  __  __  ______  __  __  ______
 72
    65
 73
     6
 40
12.7
 49
6.35
 74
     0
 49
-1.27
 74
     0
 49
1.27
 74
     0
 49
-1.27
 74
     0
 49
1.27
 74
     0
 49
-1.27
 74
     0
  0
LTYPE
  5
70
330
5
100
AcDbSymbolTableRecord
100
AcDbLinetypeTableRecord
  2
CENTER
 70
     0
  3
Center ____ _ ____ _ ____ _ ____ _ ____ _ ____
 72
    65
 73
     4
 40
10.16
 49
6.35
 74
     0
 49
-1.27
 74
     0
 49
1.27
 74
     0
 49
-1.27
 74
     0
  0
LTYPE
  5
71
330
5
100
AcDbSymbolTableRecord
100
AcDbLinetypeTableRecord
  2
CENTERX2
 70
     0
  3
Center (2x) ________  __  ________  __  _____
 72
    65
 73
     4
 40
20.32
 49
12.7
 74
     0
 49
-2.54
 74
     0
 49
2.54
 74
     0
 49
-2.54
 74
     0
  0
LTYPE
  5
72
330
5
100
AcDbSymbolTableRecord
100
AcDbLinetypeTableRecord
  2
DOT2
 70
     0
  3
Dot (.5x) ........................................
 72
    65
 73
     2
 40
0.635
 49
0.0
 74
     0
 49
-0.635
 74
     0
  0
ENDTAB
  0
TABLE
  2
LAYER
  5
2
330
0
100
AcDbSymbolTable
 70
    17
  0
LAYER
  5
10
330
2
100
AcDbSymbolTableRecord
100
AcDbLayerTableRecord
  2
0
 70
     0
 62
     7
  6
Continuous
370
    -3
390
F
  0
LAYER
  5
73
330
2
100
AcDbSymbolTableRecord
100
AcDbLayerTableRecord
  2
FORMAT
 70
     0
 62
     7
  6
Continuous
370
    -3
390
F
  0
LAYER
  5
74
330
2
100
AcDbSymbolTableRecord
100
AcDbLayerTableRecord
  2
YARDIMCI_GEOMETRI
 70
     0
 62
    -6
  6
Continuous
290
     0
370
    -3
390
F
  0
LAYER
  5
75
330
2
100
AcDbSymbolTableRecord
100
AcDbLayerTableRecord
  2
SAYFA_CERCEVESI
 70
     0
 62
     7
  6
Continuous
370
    25
390
F
  0
LAYER
  5
76
330
2
100
AcDbSymbolTableRecord
100
AcDbLayerTableRecord
  2
ANTET
 70
     0
 62
     7
  6
Continuous
370
    -3
390
F
  0
LAYER
  5
77
330
2
100
AcDbSymbolTableRecord
100
AcDbLayerTableRecord
  2
OLCU
 70
     0
 62
   150
  6
Continuous
370
    -3
390
F
  0
LAYER
  5
78
330
2
100
AcDbSymbolTableRecord
100
AcDbLayerTableRecord
  2
METIN
 70
     0
 62
    96
  6
Continuous
370
    -3
390
F
  0
LAYER
  5
79
330
2
100
AcDbSymbolTableRecord
100
AcDbLayerTableRecord
  2
BALON
 70
     0
 62
     5
  6
Continuous
370
    -3
390
F
  0
LAYER
  5
7A
330
2
100
AcDbSymbolTableRecord
100
AcDbLayerTableRecord
  2
VURGU
 70
     0
 62
     7
  6
Continuous
370
    -3
390
F
  0
LAYER
  5
7B
330
2
100
AcDbSymbolTableRecord
100
AcDbLayerTableRecord
  2
SILIK
 70
     0
 62
     7
  6
Continuous
370
    -3
390
F
  0
LAYER
  5
7C
330
2
100
AcDbSymbolTableRecord
100
AcDbLayerTableRecord
  2
MODEL
 70
     0
 62
     7
  6
Continuous
370
    -3
390
F
  0
LAYER
  5
7D
330
2
100
AcDbSymbolTableRecord
100
AcDbLayerTableRecord
  2
DETAYLANDıRMA
 70
     0
 62
   190
  6
Continuous
370
    -3
390
F
  0
LAYER
  5
7E
330
2
100
AcDbSymbolTableRecord
100
AcDbLayerTableRecord
  2
TOLERANS
 70
     0
 62
   230
  6
Continuous
370
    -3
390
F
  0
LAYER
  5
7F
330
2
100
AcDbSymbolTableRecord
100
AcDbLayerTableRecord
  2
MERKEZ_CIZGILERI
 70
     0
 62
    30
  6
Continuous
370
    -3
390
F
  0
LAYER
  5
80
330
2
100
AcDbSymbolTableRecord
100
AcDbLayerTableRecord
  2
KESIT-DETAY_CIZGILERI
 70
     0
 62
     7
  6
Continuous
370
    -3
390
F
  0
LAYER
  5
81
330
2
100
AcDbSymbolTableRecord
100
AcDbLayerTableRecord
  2
\U+041E\U+0421\U+0415\U+0412\U+042B\U+0415
 70
     0
 62
     7
  6
Continuous
370
    -3
390
F
  0
LAYER
  5
82
330
2
100
AcDbSymbolTableRecord
100
AcDbLayerTableRecord
  2
\U+0412\U+041E\U+0414\U+042F\U+041D\U+042B\U+0415_\U+0417\U+041D\U+0410\U+041A\U+0418
 70
     0
 62
    11
  6
Continuous
370
    -3
390
F
  0
ENDTAB
  0
TABLE
  2
STYLE
  5
3
330
0
100
AcDbSymbolTable
 70
     1
  0
STYLE
  5
11
330
3
100
AcDbSymbolTableRecord
100
AcDbTextStyleTableRecord
  2
Standard
 70
     0
 40
0.0
 41
1.0
 50
0.0
 71
     0
 42
3.5
  3
txt
  4

  0
ENDTAB
  0
TABLE
  2
VIEW
  5
6
330
0
100
AcDbSymbolTable
 70
     0
  0
ENDTAB
  0
TABLE
  2
UCS
  5
7
330
0
100
AcDbSymbolTable
 70
     0
  0
ENDTAB
  0
TABLE
  2
APPID
  5
9
330
0
100
AcDbSymbolTable
 70
     1
  0
APPID
  5
12
330
9
100
AcDbSymbolTableRecord
100
AcDbRegAppTableRecord
  2
ACAD
 70
     0
  0
ENDTAB
  0
TABLE
  2
DIMSTYLE
  5
A
330
0
100
AcDbSymbolTable
 70
     1
100
AcDbDimStyleTable
  0
DIMSTYLE
105
27
330
A
100
AcDbSymbolTableRecord
100
AcDbDimStyleTableRecord
  2
ISO-25
 70
     0
 41
2.5
 42
0.625
 43
3.75
 44
1.25
 73
     0
 74
     0
 77
     1
 78
     8
140
2.5
141
2.5
143
0.0393700787
147
0.625
171
     3
172
     1
178
     0
271
     2
272
     2
274
     3
278
    44
283
     0
284
     8
340
11
  0
ENDTAB
  0
TABLE
  2
BLOCK_RECORD
  5
1
330
0
100
AcDbSymbolTable
 70
     3
  0
BLOCK_RECORD
  5
1F
330
1
100
AcDbSymbolTableRecord
100
AcDbBlockTableRecord
  2
*Model_Space
340
22
  0
BLOCK_RECORD
  5
1B
330
1
100
AcDbSymbolTableRecord
100
AcDbBlockTableRecord
  2
*Paper_Space
340
1E
  0
BLOCK_RECORD
  5
23
330
1
100
AcDbSymbolTableRecord
100
AcDbBlockTableRecord
  2
*Paper_Space0
340
26
  0
BLOCK_RECORD
  5
88
330
1
100
AcDbSymbolTableRecord
100
AcDbBlockTableRecord
  2
SW_CENTERMARKSYMBOL_0
340
0
102
{BLKREFS
331
93
102
}
  0
BLOCK_RECORD
  5
9C
330
1
100
AcDbSymbolTableRecord
100
AcDbBlockTableRecord
  2
SW_CENTERMARKSYMBOL_1
340
0
102
{BLKREFS
331
A7
102
}
  0
ENDTAB
  0
ENDSEC
  0
SECTION
  2
BLOCKS
  0
BLOCK
  5
20
330
1F
100
AcDbEntity
  8
0
100
AcDbBlockBegin
  2
*Model_Space
 70
     0
 10
0.0
 20
0.0
 30
0.0
  3
*Model_Space
  1

  0
ENDBLK
  5
21
330
1F
100
AcDbEntity
  8
0
100
AcDbBlockEnd
  0
BLOCK
  5
1C
330
1B
100
AcDbEntity
 67
     1
  8
0
100
AcDbBlockBegin
  2
*Paper_Space
 70
     0
 10
0.0
 20
0.0
 30
0.0
  3
*Paper_Space
  1

  0
ENDBLK
  5
1D
330
1B
100
AcDbEntity
 67
     1
  8
0
100
AcDbBlockEnd
  0
BLOCK
  5
24
330
23
100
AcDbEntity
  8
0
100
AcDbBlockBegin
  2
*Paper_Space0
 70
     0
 10
0.0
 20
0.0
 30
0.0
  3
*Paper_Space0
  1

  0
ENDBLK
  5
25
330
23
100
AcDbEntity
  8
0
100
AcDbBlockEnd
  0
BLOCK
  5
89
330
88
100
AcDbEntity
  8
0
100
AcDbBlockBegin
  2
SW_CENTERMARKSYMBOL_0
 70
     0
 10
0.0
 20
0.0
 30
0.0
  3
SW_CENTERMARKSYMBOL_0
  1

  0
LINE
  5
8B
330
88
100
AcDbEntity
  8
FORMAT
 62
     0
100
AcDbLine
 10
0.0
 20
0.0
 30
0.0
 11
2.5
 21
0.0
 31
0.0
  0
LINE
  5
8C
330
88
100
AcDbEntity
  8
FORMAT
 62
     0
100
AcDbLine
 10
0.0
 20
0.0
 30
0.0
 11
0.0
 21
2.5
 31
0.0
  0
LINE
  5
8D
330
88
100
AcDbEntity
  8
FORMAT
 62
     0
100
AcDbLine
 10
0.0
 20
0.0
 30
0.0
 11
-2.5
 21
0.0
 31
0.0
  0
LINE
  5
8E
330
88
100
AcDbEntity
  8
FORMAT
 62
     0
100
AcDbLine
 10
0.0
 20
0.0
 30
0.0
 11
0.0
 21
-2.5
 31
0.0
  0
LINE
  5
8F
330
88
100
AcDbEntity
  8
FORMAT
 62
     0
100
AcDbLine
 10
5.0
 20
0.0
 30
0.0
 11
57.5
 21
0.0
 31
0.0
  0
LINE
  5
90
330
88
100
AcDbEntity
  8
FORMAT
 62
     0
100
AcDbLine
 10
0.0
 20
5.0
 30
0.0
 11
0.0
 21
57.5
 31
0.0
  0
LINE
  5
91
330
88
100
AcDbEntity
  8
FORMAT
 62
     0
100
AcDbLine
 10
-5.0
 20
0.0
 30
0.0
 11
-57.5
 21
0.0
 31
0.0
  0
LINE
  5
92
330
88
100
AcDbEntity
  8
FORMAT
 62
     0
100
AcDbLine
 10
0.0
 20
-5.0
 30
0.0
 11
0.0
 21
-57.5
 31
0.0
  0
ENDBLK
  5
8A
330
88
100
AcDbEntity
  8
0
100
AcDbBlockEnd
  0
BLOCK
  5
9D
330
9C
100
AcDbEntity
  8
0
100
AcDbBlockBegin
  2
SW_CENTERMARKSYMBOL_1
 70
     0
 10
0.0
 20
0.0
 30
0.0
  3
SW_CENTERMARKSYMBOL_1
  1

  0
LINE
  5
9F
330
9C
100
AcDbEntity
  8
FORMAT
 62
     0
100
AcDbLine
 10
0.0
 20
0.0
 30
0.0
 11
0.0
 21
2.5
 31
0.0
  0
LINE
  5
A0
330
9C
100
AcDbEntity
  8
FORMAT
 62
     0
100
AcDbLine
 10
0.0
 20
0.0
 30
0.0
 11
-2.5
 21
0.0
 31
0.0
  0
LINE
  5
A1
330
9C
100
AcDbEntity
  8
FORMAT
 62
     0
100
AcDbLine
 10
0.0
 20
0.0
 30
0.0
 11
0.0
 21
-2.5
 31
0.0
  0
LINE
  5
A2
330
9C
100
AcDbEntity
  8
FORMAT
 62
     0
100
AcDbLine
 10
0.0
 20
0.0
 30
0.0
 11
2.5
 21
0.0
 31
0.0
  0
LINE
  5
A3
330
9C
100
AcDbEntity
  8
FORMAT
 62
     0
100
AcDbLine
 10
0.0
 20
5.0
 30
0.0
 11
0.0
 21
40.0
 31
0.0
  0
LINE
  5
A4
330
9C
100
AcDbEntity
  8
FORMAT
 62
     0
100
AcDbLine
 10
-5.0
 20
0.0
 30
0.0
 11
-40.0
 21
0.0
 31
0.0
  0
LINE
  5
A5
330
9C
100
AcDbEntity
  8
FORMAT
 62
     0
100
AcDbLine
 10
0.0
 20
-5.0
 30
0.0
 11
0.0
 21
-40.0
 31
0.0
  0
LINE
  5
A6
330
9C
100
AcDbEntity
  8
FORMAT
 62
     0
100
AcDbLine
 10
5.0
 20
0.0
 30
0.0
 11
40.0
 21
0.0
 31
0.0
  0
ENDBLK
  5
9E
330
9C
100
AcDbEntity
  8
0
100
AcDbBlockEnd
  0
ENDSEC
  0
SECTION
  2
ENTITIES
  0
LINE
  5
83
330
1F
100
AcDbEntity
  8
0
  6
Continuous
 62
     7
370
    25
100
AcDbLine
 10
101.1320046138
 20
116.0837911631
 30
0.0
 11
101.1320046138
 21
5.3969115581
 31
0.0
  0
LINE
  5
84
330
1F
100
AcDbEntity
  8
0
  6
Continuous
 62
     7
370
    25
100
AcDbLine
 10
176.132007594
 20
5.3969115581
 30
0.0
 11
176.132007594
 21
116.1024697687
 31
0.0
  0
CIRCLE
  5
85
330
1F
100
AcDbEntity
  8
0
  6
Continuous
 62
     7
370
    25
100
AcDbCircle
 10
138.6320061039
 20
156.3969046439
 30
0.0
 40
48.40000000000001
  0
CIRCLE
  5
86
330
1F
100
AcDbEntity
  8
0
  6
Continuous
 62
     7
370
    25
100
AcDbCircle
 10
138.6320061039
 20
156.3969046439
 30
0.0
 40
55.0
  0
LINE
  5
87
330
1F
100
AcDbEntity
  8
0
  6
Continuous
 62
     7
370
    25
100
AcDbLine
 10
176.132007594
 20
5.3969115581
 30
0.0
 11
101.1320046138
 21
5.3969115581
 31
0.0
  0
INSERT
  5
93
330
1F
100
AcDbEntity
  8
FORMAT
 62
     7
100
AcDbBlockReference
  2
SW_CENTERMARKSYMBOL_0
 10
138.6320061039
 20
156.3969046439
 30
0.0
  0
LINE
  5
94
330
1F
100
AcDbEntity
  8
0
  6
Continuous
 62
     7
370
    25
100
AcDbLine
 10
193.6320058058
 20
250.9582093027
 30
0.0
 11
193.6320058058
 21
577.9582014349
 31
0.0
  0
LINE
  5
95
330
1F
100
AcDbEntity
  8
0
  6
Continuous
 62
     7
370
    25
100
AcDbLine
 10
83.6320064019
 20
577.9582014349
 30
0.0
 11
83.6320064019
 21
250.9582093027
 31
0.0
  0
CIRCLE
  5
96
330
1F
100
AcDbEntity
  8
0
  6
Continuous
 62
     7
370
    25
100
AcDbCircle
 10
138.6320061039
 20
414.4582053688
 30
0.0
 40
32.99999999999994
  0
CIRCLE
  5
97
330
1F
100
AcDbEntity
  8
0
  6
Continuous
 62
     7
370
    25
100
AcDbCircle
 10
138.6320061039
 20
414.4582053688
 30
0.0
 40
37.49999999999994
  0
LINE
  5
98
330
1F
100
AcDbEntity
  8
0
  6
Continuous
 62
     7
370
    25
100
AcDbLine
 10
138.6320061039
 20
577.9582014349
 30
0.0
 11
193.6320058058
 21
577.9582014349
 31
0.0
  0
LINE
  5
99
330
1F
100
AcDbEntity
  8
0
  6
Continuous
 62
     7
370
    25
100
AcDbLine
 10
83.6320064019
 20
577.9582014349
 30
0.0
 11
138.6320061039
 21
577.9582014349
 31
0.0
  0
LINE
  5
9A
330
1F
100
AcDbEntity
  8
0
  6
Continuous
 62
     7
370
    25
100
AcDbLine
 10
138.6320061039
 20
250.9582093027
 30
0.0
 11
193.6320058058
 21
250.9582093027
 31
0.0
  0
LINE
  5
9B
330
1F
100
AcDbEntity
  8
0
  6
Continuous
 62
     7
370
    25
100
AcDbLine
 10
83.6320064019
 20
250.9582093027
 30
0.0
 11
138.6320061039
 21
250.9582093027
 31
0.0
  0
INSERT
  5
A7
330
1F
100
AcDbEntity
  8
FORMAT
100
AcDbBlockReference
  2
SW_CENTERMARKSYMBOL_1
 10
138.6320061039
 20
414.4582053688
 30
0.0
  0
LINE
  5
A8
330
1F
100
AcDbEntity
  8
0
  6
Continuous
 62
     7
370
    25
100
AcDbLine
 10
-28.1053254127
 20
211.3969043459
 30
0.0
 11
-355.1053175449
 21
211.3969043459
 31
0.0
  0
LINE
  5
A9
330
1F
100
AcDbEntity
  8
0
  6
Continuous
 62
     7
370
    25
100
AcDbLine
 10
-154.157578361
 20
101.396904942
 30
0.0
 11
-28.1053254127
 21
101.396904942
 31
0.0
  0
LINE
  5
AA
330
1F
100
AcDbEntity
  8
0
  6
Continuous
 62
     7
370
    25
100
AcDbLine
 10
-355.1053175449
 20
101.396904942
 30
0.0
 11
-229.1053229689
 21
101.396904942
 31
0.0
  0
LINE
  5
AB
330
1F
100
AcDbEntity
  8
0
  6
Continuous
 62
     7
370
    25
100
AcDbLine
 10
-229.1053229689
 20
101.396904942
 30
0.0
 11
-229.1053229689
 21
5.3969115581
 31
0.0
  0
LINE
  5
AC
330
1F
100
AcDbEntity
  8
0
  6
Continuous
 62
     7
370
    25
100
AcDbLine
 10
-154.1053199887
 20
5.3969115581
 30
0.0
 11
-154.1053199887
 21
101.432425585
 31
0.0
  0
SPLINE
  5
AD
330
1F
100
AcDbEntity
  8
0
  6
Continuous
 62
     7
370
    25
100
AcDbSpline
210
0.0
220
0.0
230
1.0
 70
     8
 71
     3
 72
    34
 73
    30
 74
     0
 42
0.000000001
 43
0.00000001
 40
0.0
 40
0.0
 40
0.0
 40
0.0
 40
0.0069673473979881
 40
0.0531082942239622
 40
0.0955329660060071
 40
0.1390236753215971
 40
0.1849381076464586
 40
0.2318387277003521
 40
0.2854262732983112
 40
0.3128880639658699
 40
0.3403478721214406
 40
0.3865842324692543
 40
0.4103127426518651
 40
0.4340365548422725
 40
0.4724052254269292
 40
0.5118641352563384
 40
0.5502471580337194
 40
0.5896781972890394
 40
0.6149995868731881
 40
0.6403260067873606
 40
0.692371313890825
 40
0.7442122480054304
 40
0.797220082799537
 40
0.8263098001973067
 40
0.8553953056867509
 40
0.8856189427870406
 40
0.9158366615294679
 40
0.957366385471567
 40
0.9999999999999999
 40
0.9999999999999999
 40
0.9999999999999999
 40
0.9999999999999999
 10
-154.1575783610157
 20
101.4324740137321
 30
0.0
 10
-154.1409158563748
 20
101.421132871586
 30
0.0
 10
-154.0139066592697
 20
101.3346855223257
 30
0.0
 10
-154.5569057057168
 20
101.7052303584523
 30
0.0
 10
-155.778526776683
 20
102.5277739790919
 30
0.0
 10
-157.7329856463971
 20
103.812910074708
 30
0.0
 10
-160.3690572535066
 20
105.479145762574
 30
0.0
 10
-163.8251888039744
 20
107.537836613474
 30
0.0
 10
-167.3668468862046
 20
109.4623497878711
 30
0.0
 10
-170.6888572020212
 20
111.0707651294249
 30
0.0
 10
-173.9816732497119
 20
112.5157948081217
 30
0.0
 10
-177.4033334282791
 20
113.7847892552832
 30
0.0
 10
-180.8927453110599
 20
114.788339050583
 30
0.0
 10
-184.201493661878
 20
115.5406594587376
 30
0.0
 10
-188.2671152743905
 20
116.1175725182377
 30
0.0
 10
-193.0206991964683
 20
116.2329999517709
 30
0.0
 10
-197.7717486464509
 20
115.7805829122003
 30
0.0
 10
-201.7985895150473
 20
114.943452988974
 30
0.0
 10
-205.1488657172999
 20
113.971657006725
 30
0.0
 10
-208.8074272127523
 20
112.696785741386
 30
0.0
 10
-213.084974755562
 20
110.8554298371893
 30
0.0
 10
-217.6947603313374
 20
108.4899728581027
 30
0.0
 10
-221.0926403866648
 20
106.5315507710782
 30
0.0
 10
-223.512802764575
 20
105.0532156022759
 30
0.0
 10
-225.1955204398442
 20
103.9890699023913
 30
0.0
 10
-226.6282042829214
 20
103.0581896898062
 30
0.0
 10
-227.9091486647027
 20
102.2077887750453
 30
0.0
 10
-228.8975808525988
 20
101.5389292013089
 30
0.0
 10
-229.0354727312186
 20
101.4446585147688
 30
0.0
 10
-229.1053229689411
 20
101.3969049419624
 30
0.0
  0
LINE
  5
AE
330
1F
100
AcDbEntity
  8
0
  6
Continuous
 62
     7
370
    25
100
AcDbLine
 10
-355.1053175449
 20
101.396904942
 30
0.0
 11
-355.1053175449
 21
211.3969043459
 31
0.0
  0
LINE
  5
AF
330
1F
100
AcDbEntity
  8
0
  6
Continuous
 62
     7
370
    25
100
AcDbLine
 10
-28.1053254127
 20
101.396904942
 30
0.0
 11
-28.1053254127
 21
211.3969043459
 31
0.0
  0
LINE
  5
B0
330
1F
100
AcDbEntity
  8
0
  6
Continuous
 62
     7
370
    25
100
AcDbLine
 10
-154.1053199887
 20
5.3969115581
 30
0.0
 11
-229.1053229689
 21
5.3969115581
 31
0.0
  0
LINE
  5
B1
330
1F
100
AcDbEntity
  8
0
  6
Continuous
 62
     7
370
    25
100
AcDbLine
 10
508.5651206726
 20
101.396904942
 30
0.0
 11
634.5651152486
 21
101.396904942
 31
0.0
  0
LINE
  5
B2
330
1F
100
AcDbEntity
  8
0
  6
Continuous
 62
     7
370
    25
100
AcDbLine
 10
307.5651231164
 20
101.396904942
 30
0.0
 11
433.6173760647
 21
101.396904942
 31
0.0
  0
LINE
  5
B3
330
1F
100
AcDbEntity
  8
0
  6
Continuous
 62
     7
370
    25
100
AcDbLine
 10
634.5651152486
 20
211.3969043459
 30
0.0
 11
307.5651231164
 21
211.3969043459
 31
0.0
  0
LINE
  5
B4
330
1F
100
AcDbEntity
  8
0
  6
Continuous
 62
     7
370
    25
100
AcDbLine
 10
433.5651176924
 20
101.396904942
 30
0.0
 11
433.5651176924
 21
5.3969115581
 31
0.0
  0
LINE
  5
B5
330
1F
100
AcDbEntity
  8
0
  6
Continuous
 62
     7
370
    25
100
AcDbLine
 10
508.5651206726
 20
5.3969115581
 30
0.0
 11
508.5651206726
 21
101.396904942
 31
0.0
  0
SPLINE
  5
B6
330
1F
100
AcDbEntity
  8
0
  6
Continuous
 62
     7
370
    25
100
AcDbSpline
210
0.0
220
0.0
230
1.0
 70
     8
 71
     3
 72
    34
 73
    30
 74
     0
 42
0.000000001
 43
0.00000001
 40
0.0
 40
0.0
 40
0.0
 40
0.0
 40
0.0452700527849573
 40
0.0920094269708652
 40
0.1372465992146667
 40
0.1836095342288876
 40
0.2328823499185987
 40
0.2832142621402792
 40
0.31173217898197
 40
0.3404437687607497
 40
0.3698184451425006
 40
0.3994606719600566
 40
0.4395455628933812
 40
0.4806944830941471
 40
0.5208258704879009
 40
0.5622723820380722
 40
0.6005163861418852
 40
0.6395344593361629
 40
0.667915881701877
 40
0.6965068107608543
 40
0.7257106549172071
 40
0.7551157756811875
 40
0.7837045266866789
 40
0.8124961231624945
 40
0.8419799454692654
 40
0.8717327051330452
 40
0.9163862537200966
 40
0.9622801524358836
 40
1.0
 40
1.0
 40
1.0
 40
1.0
 10
508.5651206726165
 20
101.3969049419624
 30
0.0
 10
508.4858810262008
 20
101.4510851617752
 30
0.0
 10
508.3248298673983
 20
101.5612041183802
 30
0.0
 10
507.04346664817
 20
102.4274956422995
 30
0.0
 10
505.0604026173924
 20
103.7336595471512
 30
0.0
 10
502.3490078610543
 20
105.4508310140237
 30
0.0
 10
498.9052874247008
 20
107.5035113283457
 30
0.0
 10
495.365438050498
 20
109.4276170945173
 30
0.0
 10
492.0853655888699
 20
111.0241308522183
 30
0.0
 10
489.268482730182
 20
112.2634678179833
 30
0.0
 10
486.2411521193579
 20
113.4295775144064
 30
0.0
 10
482.632472981828
 20
114.5891664548413
 30
0.0
 10
478.3634149688426
 20
115.598287408437
 30
0.0
 10
473.4735188041683
 20
116.1937213233043
 30
0.0
 10
468.4494809002943
 20
116.1813685865656
 30
0.0
 10
463.6278794560395
 20
115.5690857817178
 30
0.0
 10
459.0656053796905
 20
114.480265171105
 30
0.0
 10
455.2463982815655
 20
113.2062860939792
 30
0.0
 10
451.9923621732015
 20
111.8955735742609
 30
0.0
 10
449.2398501113292
 20
110.6449207007065
 30
0.0
 10
446.6349662523415
 20
109.3434656064369
 30
0.0
 10
444.2207338424785
 20
108.0425111744306
 30
0.0
 10
442.0162539701399
 20
106.7820155838607
 30
0.0
 10
440.0190150064081
 20
105.5848854067991
 30
0.0
 10
438.2282251554556
 20
104.4695908002709
 30
0.0
 10
436.4146612736501
 20
103.3046701390809
 30
0.0
 10
434.8132554496453
 20
102.2438822032362
 30
0.0
 10
433.726546018111
 20
101.5072072644106
 30
0.0
 10
433.651314513814
 20
101.4557068772307
 30
0.0
 10
433.617376064691
 20
101.4324740137321
 30
0.0
  0
LINE
  5
B7
330
1F
100
AcDbEntity
  8
0
  6
Continuous
 62
     7
370
    25
100
AcDbLine
 10
634.5651152486
 20
211.3969043459
 30
0.0
 11
634.5651152486
 21
101.396904942
 31
0.0
  0
LINE
  5
B8
330
1F
100
AcDbEntity
  8
0
  6
Continuous
 62
     7
370
    25
100
AcDbLine
 10
307.5651231164
 20
211.3969043459
 30
0.0
 11
307.5651231164
 21
101.396904942
 31
0.0
  0
LINE
  5
B9
330
1F
100
AcDbEntity
  8
0
  6
Continuous
 62
     7
370
    25
100
AcDbLine
 10
508.5651206726
 20
5.3969115581
 30
0.0
 11
433.5651176924
 21
5.3969115581
 31
0.0
  0
LINE
  5
BA
330
1F
100
AcDbEntity
  8
0
  6
Continuous
 62
     7
370
    25
100
AcDbLine
 10
83.6320064019
 20
-31.9365607851
 30
0.0
 11
83.6320064019
 21
-358.9365529173
 31
0.0
  0
LINE
  5
BB
330
1F
100
AcDbEntity
  8
0
  6
Continuous
 62
     7
370
    25
100
AcDbLine
 10
193.6320058058
 20
-358.9365529173
 30
0.0
 11
193.6320058058
 21
-31.9365607851
 31
0.0
  0
LINE
  5
BC
330
1F
100
AcDbEntity
  8
0
  6
Continuous
 62
     7
370
    25
100
AcDbLine
 10
193.6320058058
 20
-358.9365529173
 30
0.0
 11
83.6320064019
 21
-358.9365529173
 31
0.0
  0
LINE
  5
BD
330
1F
100
AcDbEntity
  8
0
  6
Continuous
 62
     7
370
    25
100
AcDbLine
 10
193.6320058058
 20
-31.9365607851
 30
0.0
 11
83.6320064019
 21
-31.9365607851
 31
0.0
  0
LINE
  5
BE
330
1F
100
AcDbEntity
  8
0
  6
Continuous
 62
     7
370
    25
100
AcDbLine
 10
591.811934152
 20
-182.4978123664
 30
0.0
 11
360.5880222674
 21
-49.0150892951
 31
0.0
  0
LINE
  5
BF
330
1F
100
AcDbEntity
  8
0
  6
Continuous
 62
     7
370
    25
100
AcDbLine
 10
305.5924909854
 20
-144.2804674295
 30
0.0
 11
411.2022121568
 21
-205.2476617385
 31
0.0
  0
LINE
  5
C0
330
1F
100
AcDbEntity
  8
0
  6
Continuous
 62
     7
370
    25
100
AcDbLine
 10
486.2022103464
 20
-248.5442390998
 30
0.0
 11
536.81640287
 21
-277.7631905008
 31
0.0
  0
LINE
  5
C1
330
1F
100
AcDbEntity
  8
0
  6
Continuous
 62
     7
370
    25
100
AcDbLine
 10
411.2022121568
 20
-202.7281985706
 30
0.0
 11
411.2022121568
 21
-286.686796847
 31
0.0
  0
LINE
  5
C2
330
1F
100
AcDbEntity
  8
0
  6
Continuous
 62
     7
370
    25
100
AcDbLine
 10
486.2022129806
 20
-286.686796847
 30
0.0
 11
486.2022129806
 21
-202.7274776518
 31
0.0
  0
SPLINE
  5
C3
330
1F
100
AcDbEntity
  8
0
  6
Continuous
 62
     7
370
    25
100
AcDbSpline
210
0.0
220
0.0
230
1.0
 70
     8
 71
     3
 72
    13
 73
     9
 74
     0
 42
0.000000001
 43
0.00000001
 40
0.0
 40
0.0
 40
0.0
 40
0.0
 40
0.1819597773340346
 40
0.369825388182757
 40
0.5516530045057201
 40
0.7380055447117964
 40
0.9360541446131406
 40
1.0
 40
1.0
 40
1.0
 40
1.0
 10
422.1857072205445
 20
-192.9912316033617
 30
0.0
 10
420.9365156548307
 20
-193.7327292240775
 30
0.0
 10
418.3975877528875
 20
-195.2397911112461
 30
0.0
 10
415.4764045218109
 20
-197.2664039376692
 30
0.0
 10
413.2420947717578
 20
-199.1031032296527
 30
0.0
 10
411.8223824954485
 20
-200.7558529281906
 30
0.0
 10
411.1601957098415
 20
-201.9392491583722
 30
0.0
 10
411.2700369934297
 20
-202.5721815404891
 30
0.0
 10
411.2968463197114
 20
-202.7266634455813
 30
0.0
  0
SPLINE
  5
C4
330
1F
100
AcDbEntity
  8
0
  6
Continuous
 62
     7
370
    25
100
AcDbSpline
210
0.0
220
0.0
230
1.0
 70
     8
 71
     3
 72
    28
 73
    24
 74
     0
 42
0.000000001
 43
0.00000001
 40
0.0
 40
0.0
 40
0.0
 40
0.0
 40
0.048734130517103
 40
0.085176678246817
 40
0.1218476226314589
 40
0.1833990151900065
 40
0.2148646192037044
 40
0.2465693715948535
 40
0.2976470318462291
 40
0.3501760551208119
 40
0.401272821492172
 40
0.4537647425244136
 40
0.4873466618851868
 40
0.5211889723713405
 40
0.5904734295443839
 40
0.6594858185448682
 40
0.7300516248398912
 40
0.7686138540008014
 40
0.8074966957795324
 40
0.8475048527393158
 40
0.8879589429992278
 40
0.943244703426284
 40
1.0
 40
1.0
 40
1.0
 40
1.0
 10
486.0947806637431
 20
-202.7293252763267
 30
0.0
 10
486.097641255387
 20
-201.4835107621758
 30
0.0
 10
486.1026409484452
 20
-199.3060975016724
 30
0.0
 10
485.5303495630192
 20
-196.21398110979
 30
0.0
 10
484.640035902467
 20
-192.8673181327936
 30
0.0
 10
483.3456736457555
 20
-189.7823391169099
 30
0.0
 10
481.7165721140011
 20
-187.0548557874187
 30
0.0
 10
479.9795465751681
 20
-184.7419195028414
 30
0.0
 10
477.5453451163024
 20
-182.3534027000329
 30
0.0
 10
474.2705751221857
 20
-180.2687886218133
 30
0.0
 10
470.5683143178421
 20
-178.8966450215661
 30
0.0
 10
467.0647773954745
 20
-178.3177133603681
 30
0.0
 10
463.8851338390118
 20
-178.2108339805931
 30
0.0
 10
460.1780512450047
 20
-178.4048569998987
 30
0.0
 10
455.3835713642599
 20
-179.1823416494537
 30
0.0
 10
449.4566083090491
 20
-180.7719879549536
 30
0.0
 10
444.355044985328
 20
-182.5431742905608
 30
0.0
 10
440.143803789683
 20
-184.2052878678174
 30
0.0
 10
436.8356238301935
 20
-185.6109405497645
 30
0.0
 10
433.5347158493672
 20
-187.1060476981561
 30
0.0
 10
429.8984339498039
 20
-188.8536231670346
 30
0.0
 10
425.9872855109724
 20
-190.8502556861584
 30
0.0
 10
423.4639321273772
 20
-192.271359872931
 30
0.0
 10
422.1857072205445
 20
-192.9912316033617
 30
0.0
  0
LWPOLYLINE
  5
C5
330
1F
100
AcDbEntity
  8
0
  6
Continuous
 62
     7
370
    25
100
AcDbPolyline
 90
       89
 70
   128
 43
0.0
 10
333.0902566264
 20
-141.5575227726
 10
335.8646996995
 20
-139.8414455484
 10
338.625005139
 20
-137.9052631811
 10
341.3571061051
 20
-135.7588453493
 10
344.0470819546
 20
-133.41312107
 10
346.6812231081
 20
-130.8800534194
 10
349.2461090869
 20
-128.1725427715
 10
351.7286677826
 20
-125.3043925826
 10
354.1162498722
 20
-122.2902116787
 10
356.3966894046
 20
-119.145364071
 10
358.558361752
 20
-115.8858746638
 10
360.5902560504
 20
-112.5283509333
 10
362.4820173458
 20
-109.0899038439
 10
364.2240045467
 20
-105.5880565979
 10
365.807340473
 20
-102.0406488216
 10
367.2239592718
 20
-98.4657605239
 10
368.4666380267
 20
-94.8816101971
 10
369.5290494422
 20
-91.3064574824
 10
370.405775014
 20
-87.758525604
 10
371.0923524446
 20
-84.2558880648
 10
371.585275643
 20
-80.8164002045
 10
371.8820395059
 20
-77.4575832332
 10
371.9811293809
 20
-74.1965554088
 10
371.8820395059
 20
-71.0499343189
 10
371.585275643
 20
-68.0337536105
 10
371.0923524446
 20
-65.163382761
 10
370.405775014
 20
-62.45345065
 10
369.5290494422
 20
-59.9177645706
 10
368.4666380267
 20
-57.5692459665
 10
367.2239592718
 20
-55.4198619903
 10
365.807340473
 20
-53.4805669431
 10
364.2240045467
 20
-51.7612399156
 10
362.4820173458
 20
-50.2706482809
 10
360.5902560504
 20
-49.0163822916
 10
358.558361752
 20
-48.0048337825
 10
356.3966894046
 20
-47.2411581427
 10
354.1162498722
 20
-46.7292499755
 10
351.7286677826
 20
-46.4717126755
 10
349.2461090869
 20
-46.4698637456
 10
346.6812231081
 20
-46.7237074147
 10
344.0470819546
 20
-47.2319544037
 10
341.3571061051
 20
-47.9920101319
 10
338.625005139
 20
-49.0000089319
 10
335.8646996995
 20
-50.2508073883
 10
333.0902566264
 20
-51.7380339519
 10
330.3158135534
 20
-53.4541111762
 10
327.5555081138
 20
-55.3902935435
 10
324.8234071477
 20
-57.5367113753
 10
322.1334312982
 20
-59.8824356546
 10
319.4992901447
 20
-62.4155033051
 10
316.9344041659
 20
-65.123013953
 10
314.4518454702
 20
-67.991164142
 10
312.0642633806
 20
-71.0053450458
 10
309.7838238482
 20
-74.1501926535
 10
307.6221515008
 20
-77.4096820608
 10
305.5902572024
 20
-80.7672057913
 10
303.698495907
 20
-84.2056528806
 10
301.9565087061
 20
-87.7075001267
 10
300.3731727798
 20
-91.254907903
 10
298.956553981
 20
-94.8297962006
 10
297.7138752261
 20
-98.4139465274
 10
296.6514638106
 20
-101.9890992421
 10
295.7747382388
 20
-105.5370311205
 10
295.0881608082
 20
-109.0396686597
 10
294.5952376098
 20
-112.4791565201
 10
294.2984737469
 20
-115.8379734913
 10
294.1993838719
 20
-119.0990013157
 10
294.2984737469
 20
-122.2456224057
 10
294.5952376098
 20
-125.261803114
 10
295.0881608082
 20
-128.1321739635
 10
295.7747382388
 20
-130.8421060745
 10
296.6514638106
 20
-133.3777921539
 10
297.7138752261
 20
-135.726310758
 10
298.956553981
 20
-137.8756947342
 10
300.3731727798
 20
-139.8149897815
 10
301.9565087061
 20
-141.5343168089
 10
303.698495907
 20
-143.0249084437
 10
305.5902572024
 20
-144.2791744329
 10
307.6221515008
 20
-145.290722942
 10
309.7838238482
 20
-146.0543985818
 10
312.0642633806
 20
-146.5663067491
 10
314.4518454702
 20
-146.8238440491
 10
316.9344041659
 20
-146.8256929789
 10
319.4992901447
 20
-146.5718493099
 10
322.1334312982
 20
-146.0636023209
 10
324.8234071477
 20
-145.3035465927
 10
327.5555081138
 20
-144.2955477927
 10
330.3158135534
 20
-143.0447493363
 10
333.0902566264
 20
-141.5575227726
  0
LWPOLYLINE
  5
C6
330
1F
100
AcDbEntity
  8
0
  6
Continuous
 62
     7
370
    25
100
AcDbPolyline
 90
       35
 70
   128
 43
0.0
 10
564.314168511
 20
-275.040245844
 10
567.0886115841
 20
-273.3241686197
 10
569.8489170236
 20
-271.3879862524
 10
572.5810179897
 20
-269.2415684206
 10
575.2709938393
 20
-266.8958441413
 10
577.9051349927
 20
-264.3627764907
 10
580.4700209715
 20
-261.6552658429
 10
582.9525796672
 20
-258.7871156539
 10
585.3401617568
 20
-255.77293475
 10
587.6206012892
 20
-252.6280871424
 10
589.7822736367
 20
-249.3685977351
 10
591.814167935
 20
-246.0110740046
 10
593.7059292304
 20
-242.5726269153
 10
595.4479164313
 20
-239.0707796692
 10
597.0312523577
 20
-235.5233718929
 10
598.4478711564
 20
-231.9484835953
 10
599.6905499113
 20
-228.3643332685
 10
600.7529613268
 20
-224.7891805537
 10
601.6296868986
 20
-221.2412486754
 10
602.3162643292
 20
-217.7386111361
 10
602.8091875276
 20
-214.2991232758
 10
603.1059513905
 20
-210.9403063046
 10
603.2050412655
 20
-207.6792784801
 10
603.1059513905
 20
-204.5326573902
 10
602.8091875276
 20
-201.5164766818
 10
602.3162643292
 20
-198.6461058324
 10
601.6296868986
 20
-195.9361737213
 10
600.7529613268
 20
-193.4004876419
 10
599.6905499113
 20
-191.0519690379
 10
598.4478711564
 20
-188.9025850616
 10
597.0312523577
 20
-186.9632900144
 10
595.4479164313
 20
-185.2439629869
 10
593.7059292304
 20
-183.7533713522
 10
591.814167935
 20
-182.4991053629
 10
591.811934152
 20
-182.4978123664
  0
LWPOLYLINE
  5
C7
330
1F
100
AcDbEntity
  8
0
  6
Continuous
 62
     7
370
    25
100
AcDbPolyline
 90
       12
 70
   128
 43
0.0
 10
536.81640287
 20
-277.7631905008
 10
538.8460633854
 20
-278.7734460134
 10
541.0077357328
 20
-279.5371216532
 10
543.2881752652
 20
-280.0490298204
 10
545.6757573549
 20
-280.3065671204
 10
548.1583160505
 20
-280.3084160503
 10
550.7232020293
 20
-280.0545723812
 10
553.3573431828
 20
-279.5463253922
 10
556.0473190323
 20
-278.786269664
 10
558.7794199984
 20
-277.778270864
 10
561.539725438
 20
-276.5274724076
 10
564.314168511
 20
-275.040245844
  0
LWPOLYLINE
  5
C8
330
1F
100
AcDbEntity
  8
0
  6
Continuous
 62
     7
370
    25
100
AcDbPolyline
 90
       84
 70
   128
 43
0.0
 10
333.0902566264
 20
-136.1683534434
 10
335.6785724663
 20
-134.5609662591
 10
338.2520624938
 20
-132.736414197
 10
340.7959866716
 20
-130.7051502425
 10
343.2957722331
 20
-128.4788083956
 10
345.7371020913
 20
-126.0701435075
 10
348.1059920536
 20
-123.4929471618
 10
350.388873469
 20
-120.7619847537
 10
352.5726689607
 20
-117.8929000591
 10
354.6448714513
 20
-114.9021239866
 10
356.5936126517
 20
-111.8067863701
 10
358.4077262813
 20
-108.6246247194
 10
360.076825776
 20
-105.3738557087
 10
361.5913464355
 20
-102.0731067396
 10
362.9426165456
 20
-98.7412821058
 10
364.1228942571
 20
-95.3974671786
 10
365.1254229034
 20
-92.0608113006
 10
365.944454708
 20
-88.7504296879
 10
366.5753008339
 20
-85.485284043
 10
367.0143471891
 20
-82.2840764707
 10
367.2590781333
 20
-79.1651433965
 10
367.3080949181
 20
-76.1463483903
 10
367.1611156865
 20
-73.2449834486
 10
366.8189807411
 20
-70.4776675686
 10
366.2836525448
 20
-67.8602515954
 10
365.5581920122
 20
-65.4077294827
 10
364.6467611448
 20
-63.1341450891
 10
363.5545756151
 20
-61.0525263941
 10
362.2878942299
 20
-59.1747927196
 10
360.8539715157
 20
-57.5117007335
 10
359.2610208395
 20
-56.0727767648
 10
357.5181643599
 20
-54.8662635662
 10
355.6353908799
 20
-53.8990701198
 10
353.623476822
 20
-53.1767381695
 10
351.4939533003
 20
-52.7034034341
 10
349.2590139251
 20
-52.4817788683
 10
346.9314608015
 20
-52.5131310837
 10
344.5246268217
 20
-52.7972856643
 10
342.0522986149
 20
-53.3326108099
 10
339.5286362053
 20
-54.1160393813
 10
336.9680949738
 20
-55.143089616
 10
334.3853421063
 20
-56.4078738182
 10
331.7951711465
 20
-57.9031476855
 10
329.212418279
 20
-59.6203464709
 10
326.6518770476
 20
-61.5496342145
 10
324.1282146379
 20
-63.6799642403
 10
321.6558864311
 20
-65.9991284827
 10
319.2490524513
 20
-68.4938452651
 10
316.9214993277
 20
-71.1498286847
 10
314.6865599525
 20
-73.9518593277
 10
312.5570364309
 20
-76.8838895864
 10
310.5451223729
 20
-79.9291280636
 10
308.6623488929
 20
-83.0701254992
 10
306.9194924133
 20
-86.2888979571
 10
305.3265417371
 20
-89.5670036284
 10
303.8926190229
 20
-92.8856675404
 10
302.6259376377
 20
-96.2258804125
 10
301.533752108
 20
-99.5685096789
 10
300.6223212406
 20
-102.8944097527
 10
299.896860708
 20
-106.1845307675
 10
299.3615325117
 20
-109.4200235202
 10
299.0193975663
 20
-112.5823599997
 10
298.8724183347
 20
-115.6534235501
 10
298.9214351195
 20
-118.6156249813
 10
299.1661660638
 20
-121.4519977217
 10
299.6052124189
 20
-124.1462931623
 10
300.2360585448
 20
-126.6830793737
 10
301.0550903494
 20
-129.0478269932
 10
302.0576189957
 20
-131.2269879342
 10
303.2378967072
 20
-133.208083222
 10
304.5891668173
 20
-134.9797645952
 10
306.1036874768
 20
-136.5318852315
 10
307.7727869715
 20
-137.8555529851
 10
309.5869006011
 20
-138.9431836225
 10
311.5356418015
 20
-139.7885525409
 10
313.6078442921
 20
-140.3868145438
 10
315.7916397838
 20
-140.7345426323
 10
318.0745211992
 20
-140.8297462619
 10
320.4434111615
 20
-140.6718804746
 10
322.8847410197
 20
-140.2618459061
 10
325.3845265812
 20
-139.601996778
 10
327.928450759
 20
-138.6961083958
 10
330.5019407865
 20
-137.5493721179
 10
333.0902566264
 20
-136.1683534434
  0
LWPOLYLINE
  5
C9
330
1F
100
AcDbEntity
  8
0
  6
Continuous
 62
     7
370
    25
100
AcDbPolyline
 90
       69
 70
   128
 43
0.0
 10
472.0367362214
 20
-300.1575306191
 10
474.0902340724
 20
-298.8571447364
 10
475.9271280735
 20
-297.452924257
 10
477.531750134
 20
-295.9568521285
 10
478.8904097721
 20
-294.3816917865
 10
479.9915133116
 20
-292.7408803274
 10
480.8256685908
 20
-291.0484178789
 10
481.3857567436
 20
-289.3187440446
 10
481.6670013466
 20
-287.5666143493
 10
481.6670013466
 20
-285.8069793447
 10
481.3857567436
 20
-284.0548496494
 10
480.8256685908
 20
-282.3251758151
 10
479.9915133116
 20
-280.6327133666
 10
478.8904097721
 20
-278.9919019075
 10
477.531750134
 20
-277.4167415655
 10
475.9271280735
 20
-275.920669437
 10
474.0902340724
 20
-274.5164489576
 10
472.0367362214
 20
-273.2160630749
 10
469.7841577315
 20
-272.0306039988
 10
467.3517129558
 20
-270.9701876635
 10
464.7601592172
 20
-270.0438590654
 10
462.0316058304
 20
-269.2595215515
 10
459.189329051
 20
-268.6238680084
 10
456.2575804391
 20
-268.1423204157
 10
453.2613728323
 20
-267.8189884075
 10
450.2262663185
 20
-267.6566293541
 10
447.178158819
 20
-267.6566293541
 10
444.1430523051
 20
-267.8189884075
 10
441.1468446983
 20
-268.1423204157
 10
438.2150960864
 20
-268.6238680084
 10
435.3728193071
 20
-269.2595215515
 10
432.6442659202
 20
-270.0438590654
 10
430.0527121816
 20
-270.9701876635
 10
427.6202674059
 20
-272.0306039988
 10
425.367688916
 20
-273.2160630749
 10
423.3141910651
 20
-274.5164489576
 10
421.4772970639
 20
-275.920669437
 10
419.8726750034
 20
-277.4167415655
 10
418.5140153653
 20
-278.9919019075
 10
417.4129118258
 20
-280.6327133666
 10
416.5787565466
 20
-282.3251758151
 10
416.0186683939
 20
-284.0548496494
 10
415.7374237908
 20
-285.8069793447
 10
415.7374237908
 20
-287.5666143493
 10
416.0186683939
 20
-289.3187440446
 10
416.5787565466
 20
-291.0484178789
 10
417.4129118258
 20
-292.7408803274
 10
418.5140153653
 20
-294.3816917865
 10
419.8726750034
 20
-295.9568521285
 10
421.4772970639
 20
-297.452924257
 10
423.3141910651
 20
-298.8571447364
 10
425.367688916
 20
-300.1575306191
 10
427.6202674059
 20
-301.3429896952
 10
430.0527121816
 20
-302.4034060305
 10
432.6442659202
 20
-303.3297346286
 10
435.3728193071
 20
-304.1140721425
 10
438.2150960864
 20
-304.7497256856
 10
441.1468446983
 20
-305.2312732783
 10
444.1430523051
 20
-305.5546052866
 10
447.178158819
 20
-305.71696434
 10
450.2262663185
 20
-305.71696434
 10
453.2613728323
 20
-305.5546052866
 10
456.2575804391
 20
-305.2312732783
 10
459.189329051
 20
-304.7497256856
 10
462.0316058304
 20
-304.1140721425
 10
464.7601592172
 20
-303.3297346286
 10
467.3517129558
 20
-302.4034060305
 10
469.7841577315
 20
-301.3429896952
 10
472.0367362214
 20
-300.1575306191
  0
LWPOLYLINE
  5
CA
330
1F
100
AcDbEntity
  8
0
  6
Continuous
 62
     7
370
    25
100
AcDbPolyline
 90
       74
 70
   128
 43
0.0
 10
475.2187179169
 20
-301.994449552
 10
477.4000438666
 20
-300.6218637497
 10
479.368900309
 20
-299.1461071271
 10
481.1107143127
 20
-297.5781076607
 10
482.6125836736
 20
-295.9294711696
 10
483.8633961118
 20
-294.2124064222
 10
484.8538839303
 20
-292.4396236304
 10
485.5767195044
 20
-290.6242504324
 10
486.0265488673
 20
-288.7797243048
 10
486.2000424179
 20
-286.9197039828
 10
486.0959133603
 20
-285.057958451
 10
485.7149361428
 20
-283.2082726608
 10
485.0599293359
 20
-281.3843403233
 10
484.1357424614
 20
-279.5996650644
 10
482.9492171381
 20
-277.8674619614
 10
481.509140984
 20
-276.2005533764
 10
479.8261718834
 20
-274.6112811369
 10
477.9127734497
 20
-273.1114114937
 10
475.7831093287
 20
-271.7120497726
 10
473.4529485336
 20
-270.4235553115
 10
470.9395401558
 20
-269.2554691331
 10
468.2614968034
 20
-268.2164375308
 10
465.4386418187
 20
-267.3141542831
 10
462.4918764164
 20
-266.5552991608
 10
459.4430181762
 20
-265.945490311
 10
456.3146367353
 20
-265.4892441492
 10
453.1298970555
 20
-265.1899350613
 10
449.9123763471
 20
-265.0497824776
 10
446.6858954821
 20
-265.069823501
 10
443.4743425041
 20
-265.2499083446
 10
440.3014961381
 20
-265.588704894
 10
437.1908440325
 20
-266.0837032691
 10
434.1654187814
 20
-266.7312405354
 10
431.2476194594
 20
-267.5265216129
 10
428.4590469846
 20
-268.463658054
 10
425.8203477154
 20
-269.535712713
 10
423.351059597
 20
-270.7347490255
 10
421.0694611909
 20
-272.0518877493
 10
418.9924443284
 20
-273.4773774376
 10
417.1353899749
 20
-275.0006661016
 10
415.5120461526
 20
-276.6104747255
 10
414.1344296524
 20
-278.2948844205
 10
413.0127406701
 20
-280.0414252417
 10
412.1552854276
 20
-281.8371664789
 10
411.5684090014
 20
-283.6688116983
 10
411.2564591021
 20
-285.5228017693
 10
411.2217432698
 20
-287.3854095259
 10
411.4645209711
 20
-289.2428446942
 10
411.9829956964
 20
-291.0813557776
 10
412.7733228629
 20
-292.8873319421
 10
413.8296572297
 20
-294.6474003401
 10
415.1441752879
 20
-296.3485317972
 10
416.7071450668
 20
-297.9781312929
 10
418.5069956102
 20
-299.5241328126
 10
420.5303994588
 20
-300.9750925846
 10
422.7623791704
 20
-302.3202657788
 10
425.186407418
 20
-303.5496947067
 10
427.7845393578
 20
-304.6542761108
 10
430.5375379167
 20
-305.6258334924
 10
433.4250211424
 20
-306.4571717607
 10
436.4256100458
 20
-307.1421382499
 10
439.5170932379
 20
-307.6756599762
 10
442.676579053
 20
-308.0537873572
 10
445.8806759901
 20
-308.2737208234
 10
449.1056632761
 20
-308.3338332488
 10
452.3276620871
 20
-308.2336775539
 10
455.5228212582
 20
-307.9739965902
 10
458.6674806022
 20
-307.5567124954
 10
461.7383632049
 20
-306.9849160488
 10
464.7127288661
 20
-306.2628373981
 10
467.5685604671
 20
-305.3958266709
 10
470.2847095095
 20
-304.3902988499
 10
472.8410719468
 20
-303.2537022188
 10
475.2187179169
 20
-301.994449552
  0
ENDSEC
  0
SECTION
  2
OBJECTS
  0
DICTIONARY
  5
C
330
0
100
AcDbDictionary
281
     1
  3
ACAD_GROUP
350
D
  3
ACAD_LAYOUT
350
1A
  3
ACAD_MLINESTYLE
350
17
  3
ACAD_PLOTSETTINGS
350
19
  3
ACAD_PLOTSTYLENAME
350
E
  3
ACAD_SCALELIST
350
47
  0
DICTIONARY
  5
D
102
{ACAD_REACTORS
330
C
102
}
330
C
100
AcDbDictionary
281
     1
  0
DICTIONARY
  5
1A
102
{ACAD_REACTORS
330
C
102
}
330
C
100
AcDbDictionary
281
     1
  3
Layout1
350
1E
  3
Layout2
350
26
  3
Model
350
22
  0
DICTIONARY
  5
17
102
{ACAD_REACTORS
330
C
102
}
330
C
100
AcDbDictionary
281
     1
  3
Standard
350
18
  0
DICTIONARY
  5
19
102
{ACAD_REACTORS
330
C
102
}
330
C
100
AcDbDictionary
281
     1
  0
ACDBDICTIONARYWDFLT
  5
E
102
{ACAD_REACTORS
330
C
102
}
330
C
100
AcDbDictionary
281
     1
  3
Normal
350
F
100
AcDbDictionaryWithDefault
340
F
  0
DICTIONARY
  5
47
102
{ACAD_REACTORS
330
C
102
}
330
C
100
AcDbDictionary
281
     1
  3
A0
350
48
  3
A1
350
49
  3
A2
350
4A
  3
A3
350
4B
  3
A4
350
4C
  3
A5
350
4D
  3
A6
350
4E
  3
A7
350
4F
  3
A8
350
50
  3
A9
350
51
  3
B0
350
52
  3
B1
350
53
  3
B2
350
54
  3
B3
350
55
  3
B4
350
56
  3
B5
350
57
  3
B6
350
58
  3
B7
350
59
  3
B8
350
5A
  3
B9
350
5B
  3
C0
350
5C
  3
C1
350
5D
  3
C2
350
5E
  3
C3
350
5F
  3
C4
350
60
  3
C5
350
61
  3
C6
350
62
  3
C7
350
63
  3
C8
350
64
  3
C9
350
65
  3
D0
350
66
  3
D1
350
67
  3
D2
350
68
  0
LAYOUT
  5
1E
102
{ACAD_REACTORS
330
1A
102
}
330
1A
100
AcDbPlotSettings
  1

  2
none_device
  4

  6

 40
0.0
 41
0.0
 42
0.0
 43
0.0
 44
0.0
 45
0.0
 46
0.0
 47
0.0
 48
0.0
 49
0.0
140
0.0
141
0.0
142
1.0
143
1.0
 70
   688
 72
     1
 73
     0
 74
     5
  7

 75
    16
147
1.0
148
0.0
149
0.0
100
AcDbLayout
  1
Layout1
 70
     1
 71
     1
 10
0.0
 20
0.0
 11
420.0
 21
297.0
 12
0.0
 22
0.0
 32
0.0
 14
1.0000000000E+20
 24
1.0000000000E+20
 34
1.0000000000E+20
 15
-1.0000000000E+20
 25
-1.0000000000E+20
 35
-1.0000000000E+20
146
0.0
 13
0.0
 23
0.0
 33
0.0
 16
1.0
 26
0.0
 36
0.0
 17
0.0
 27
1.0
 37
0.0
 76
     0
330
1B
  0
LAYOUT
  5
26
102
{ACAD_REACTORS
330
1A
102
}
330
1A
100
AcDbPlotSettings
  1

  2
none_device
  4

  6

 40
0.0
 41
0.0
 42
0.0
 43
0.0
 44
0.0
 45
0.0
 46
0.0
 47
0.0
 48
0.0
 49
0.0
140
0.0
141
0.0
142
1.0
143
1.0
 70
   688
 72
     1
 73
     0
 74
     5
  7

 75
    16
147
1.0
148
0.0
149
0.0
100
AcDbLayout
  1
Layout2
 70
     1
 71
     2
 10
0.0
 20
0.0
 11
0.0
 21
0.0
 12
0.0
 22
0.0
 32
0.0
 14
0.0
 24
0.0
 34
0.0
 15
0.0
 25
0.0
 35
0.0
146
0.0
 13
0.0
 23
0.0
 33
0.0
 16
1.0
 26
0.0
 36
0.0
 17
0.0
 27
1.0
 37
0.0
 76
     0
330
23
  0
LAYOUT
  5
22
102
{ACAD_REACTORS
330
1A
102
}
330
1A
100
AcDbPlotSettings
  1

  2
none_device
  4
Letter_(8.50_x_11.00_Inches)
  6

 40
6.35
 41
6.35
 42
6.35000508
 43
6.35000508
 44
215.9
 45
279.4
 46
0.0
 47
0.0
 48
0.0
 49
0.0
140
0.0
141
0.0
142
1.0
143
1.0
 70
  1712
 72
     1
 73
     0
 74
     0
  7

 75
     0
147
1.0
148
0.0
149
0.0
100
AcDbLayout
  1
Model
 70
     1
 71
     0
 10
0.0
 20
0.0
 11
279.4
 21
215.9
 12
0.0
 22
0.0
 32
0.0
 14
0.0
 24
0.0
 34
0.0
 15
279.4
 25
215.9
 35
0.0
146
0.0
 13
0.0
 23
0.0
 33
0.0
 16
1.0
 26
0.0
 36
0.0
 17
0.0
 27
1.0
 37
0.0
 76
     0
330
1F
331
29
  0
MLINESTYLE
  5
18
102
{ACAD_REACTORS
330
17
102
}
330
17
100
AcDbMlineStyle
  2
Standard
 70
     0
  3

 62
   256
 51
90.0
 52
90.0
 71
     2
 49
0.5
 62
   256
  6
BYLAYER
 49
-0.5
 62
   256
  6
BYLAYER
  0
ACDBPLACEHOLDER
  5
F
102
{ACAD_REACTORS
330
E
102
}
330
E
  0
SCALE
  5
48
102
{ACAD_REACTORS
330
47
102
}
330
47
100
AcDbScale
 70
     0
300
1:1
140
1.0
141
1.0
290
     1
  0
SCALE
  5
49
102
{ACAD_REACTORS
330
47
102
}
330
47
100
AcDbScale
 70
     0
300
1:2
140
1.0
141
2.0
290
     0
  0
SCALE
  5
4A
102
{ACAD_REACTORS
330
47
102
}
330
47
100
AcDbScale
 70
     0
300
1:4
140
1.0
141
4.0
290
     0
  0
SCALE
  5
4B
102
{ACAD_REACTORS
330
47
102
}
330
47
100
AcDbScale
 70
     0
300
1:5
140
1.0
141
5.0
290
     0
  0
SCALE
  5
4C
102
{ACAD_REACTORS
330
47
102
}
330
47
100
AcDbScale
 70
     0
300
1:8
140
1.0
141
8.0
290
     0
  0
SCALE
  5
4D
102
{ACAD_REACTORS
330
47
102
}
330
47
100
AcDbScale
 70
     0
300
1:10
140
1.0
141
10.0
290
     0
  0
SCALE
  5
4E
102
{ACAD_REACTORS
330
47
102
}
330
47
100
AcDbScale
 70
     0
300
1:16
140
1.0
141
16.0
290
     0
  0
SCALE
  5
4F
102
{ACAD_REACTORS
330
47
102
}
330
47
100
AcDbScale
 70
     0
300
1:20
140
1.0
141
20.0
290
     0
  0
SCALE
  5
50
102
{ACAD_REACTORS
330
47
102
}
330
47
100
AcDbScale
 70
     0
300
1:30
140
1.0
141
30.0
290
     0
  0
SCALE
  5
51
102
{ACAD_REACTORS
330
47
102
}
330
47
100
AcDbScale
 70
     0
300
1:40
140
1.0
141
40.0
290
     0
  0
SCALE
  5
52
102
{ACAD_REACTORS
330
47
102
}
330
47
100
AcDbScale
 70
     0
300
1:50
140
1.0
141
50.0
290
     0
  0
SCALE
  5
53
102
{ACAD_REACTORS
330
47
102
}
330
47
100
AcDbScale
 70
     0
300
1:100
140
1.0
141
100.0
290
     0
  0
SCALE
  5
54
102
{ACAD_REACTORS
330
47
102
}
330
47
100
AcDbScale
 70
     0
300
2:1
140
2.0
141
1.0
290
     0
  0
SCALE
  5
55
102
{ACAD_REACTORS
330
47
102
}
330
47
100
AcDbScale
 70
     0
300
4:1
140
4.0
141
1.0
290
     0
  0
SCALE
  5
56
102
{ACAD_REACTORS
330
47
102
}
330
47
100
AcDbScale
 70
     0
300
8:1
140
8.0
141
1.0
290
     0
  0
SCALE
  5
57
102
{ACAD_REACTORS
330
47
102
}
330
47
100
AcDbScale
 70
     0
300
10:1
140
10.0
141
1.0
290
     0
  0
SCALE
  5
58
102
{ACAD_REACTORS
330
47
102
}
330
47
100
AcDbScale
 70
     0
300
100:1
140
100.0
141
1.0
290
     0
  0
SCALE
  5
59
102
{ACAD_REACTORS
330
47
102
}
330
47
100
AcDbScale
 70
     0
300
1/128" = 1'-0"
140
0.0078125
141
12.0
290
     0
  0
SCALE
  5
5A
102
{ACAD_REACTORS
330
47
102
}
330
47
100
AcDbScale
 70
     0
300
1/64" = 1'-0"
140
0.015625
141
12.0
290
     0
  0
SCALE
  5
5B
102
{ACAD_REACTORS
330
47
102
}
330
47
100
AcDbScale
 70
     0
300
1/32" = 1'-0"
140
0.03125
141
12.0
290
     0
  0
SCALE
  5
5C
102
{ACAD_REACTORS
330
47
102
}
330
47
100
AcDbScale
 70
     0
300
1/16" = 1'-0"
140
0.0625
141
12.0
290
     0
  0
SCALE
  5
5D
102
{ACAD_REACTORS
330
47
102
}
330
47
100
AcDbScale
 70
     0
300
3/32" = 1'-0"
140
0.09375
141
12.0
290
     0
  0
SCALE
  5
5E
102
{ACAD_REACTORS
330
47
102
}
330
47
100
AcDbScale
 70
     0
300
1/8" = 1'-0"
140
0.125
141
12.0
290
     0
  0
SCALE
  5
5F
102
{ACAD_REACTORS
330
47
102
}
330
47
100
AcDbScale
 70
     0
300
3/16" = 1'-0"
140
0.1875
141
12.0
290
     0
  0
SCALE
  5
60
102
{ACAD_REACTORS
330
47
102
}
330
47
100
AcDbScale
 70
     0
300
1/4" = 1'-0"
140
0.25
141
12.0
290
     0
  0
SCALE
  5
61
102
{ACAD_REACTORS
330
47
102
}
330
47
100
AcDbScale
 70
     0
300
3/8" = 1'-0"
140
0.375
141
12.0
290
     0
  0
SCALE
  5
62
102
{ACAD_REACTORS
330
47
102
}
330
47
100
AcDbScale
 70
     0
300
1/2" = 1'-0"
140
0.5
141
12.0
290
     0
  0
SCALE
  5
63
102
{ACAD_REACTORS
330
47
102
}
330
47
100
AcDbScale
 70
     0
300
3/4" = 1'-0"
140
0.75
141
12.0
290
     0
  0
SCALE
  5
64
102
{ACAD_REACTORS
330
47
102
}
330
47
100
AcDbScale
 70
     0
300
1" = 1'-0"
140
1.0
141
12.0
290
     0
  0
SCALE
  5
65
102
{ACAD_REACTORS
330
47
102
}
330
47
100
AcDbScale
 70
     0
300
1-1/2" = 1'-0"
140
1.5
141
12.0
290
     0
  0
SCALE
  5
66
102
{ACAD_REACTORS
330
47
102
}
330
47
100
AcDbScale
 70
     0
300
3" = 1'-0"
140
3.0
141
12.0
290
     0
  0
SCALE
  5
67
102
{ACAD_REACTORS
330
47
102
}
330
47
100
AcDbScale
 70
     0
300
6" = 1'-0"
140
6.0
141
12.0
290
     0
  0
SCALE
  5
68
102
{ACAD_REACTORS
330
47
102
}
330
47
100
AcDbScale
 70
     0
300
1'-0" = 1'-0"
140
12.0
141
12.0
290
     0
  0
ENDSEC
  0
EOF
